  0
SECTION
  2
HEADER
  9
$ACADVER
  1
AC1015
  9
$ACADMAINTVER
 70
     6
  9
$DWGCODEPAGE
  3
ANSI_1254
  9
$INSBASE
 10
0.0
 20
0.0
 30
0.0
  9
$EXTMIN
 10
0.0
 20
0.0
 30
0.0
  9
$EXTMAX
 10
279.4
 20
215.9
 30
0.0
  9
$LIMMIN
 10
0.0
 20
0.0
  9
$LIMMAX
 10
279.4
 20
215.9
  9
$ORTHOMODE
 70
     0
  9
$REGENMODE
 70
     1
  9
$FILLMODE
 70
     1
  9
$QTEXTMODE
 70
     0
  9
$MIRRTEXT
 70
     1
  9
$LTSCALE
 40
1.0
  9
$ATTMODE
 70
     1
  9
$TEXTSIZE
 40
3.5
  9
$TRACEWID
 40
1.0
  9
$TEXTSTYLE
  7
Standard
  9
$CLAYER
  8
0
  9
$CELTYPE
  6
ByLayer
  9
$CECOLOR
 62
   256
  9
$CELTSCALE
 40
1.0
  9
$DISPSILH
 70
     0
  9
$DIMSCALE
 40
1.0
  9
$DIMASZ
 40
3.5
  9
$DIMEXO
 40
1.0
  9
$DIMDLI
 40
3.75
  9
$DIMRND
 40
0.0
  9
$DIMDLE
 40
0.0
  9
$DIMEXE
 40
1.0
  9
$DIMTP
 40
0.0
  9
$DIMTM
 40
0.0
  9
$DIMTXT
 40
3.5
  9
$DIMCEN
 40
2.5
  9
$DIMTSZ
 40
0.0
  9
$DIMTOL
 70
     0
  9
$DIMLIM
 70
     0
  9
$DIMTIH
 70
     1
  9
$DIMTOH
 70
     1
  9
$DIMSE1
 70
     0
  9
$DIMSE2
 70
     0
  9
$DIMTAD
 70
     1
  9
$DIMZIN
 70
     0
  9
$DIMBLK
  1

  9
$DIMASO
 70
     1
  9
$DIMSHO
 70
     1
  9
$DIMPOST
  1

  9
$DIMAPOST
  1

  9
$DIMALT
 70
     0
  9
$DIMALTD
 70
     3
  9
$DIMALTF
 40
0.0393700787
  9
$DIMLFAC
 40
1.0
  9
$DIMTOFL
 70
     1
  9
$DIMTVP
 40
0.0
  9
$DIMTIX
 70
     0
  9
$DIMSOXD
 70
     0
  9
$DIMSAH
 70
     0
  9
$DIMBLK1
  1

  9
$DIMBLK2
  1

  9
$DIMSTYLE
  2
ISO-25
  9
$DIMCLRD
 70
     0
  9
$DIMCLRE
 70
     0
  9
$DIMCLRT
 70
     0
  9
$DIMTFAC
 40
1.0
  9
$DIMGAP
 40
1.524
  9
$DIMJUST
 70
     0
  9
$DIMSD1
 70
     0
  9
$DIMSD2
 70
     0
  9
$DIMTOLJ
 70
     0
  9
$DIMTZIN
 70
     0
  9
$DIMALTZ
 70
     0
  9
$DIMALTTZ
 70
     0
  9
$DIMUPT
 70
     0
  9
$DIMDEC
 70
     2
  9
$DIMTDEC
 70
     2
  9
$DIMALTU
 70
     2
  9
$DIMALTTD
 70
     3
  9
$DIMTXSTY
  7
Standard
  9
$DIMAUNIT
 70
     0
  9
$DIMADEC
 70
     2
  9
$DIMALTRND
 40
0.0
  9
$DIMAZIN
 70
     0
  9
$DIMDSEP
 70
    44
  9
$DIMATFIT
 70
     3
  9
$DIMFRAC
 70
     0
  9
$DIMLDRBLK
  1

  9
$DIMLUNIT
 70
     2
  9
$DIMLWD
 70
    -2
  9
$DIMLWE
 70
    -2
  9
$DIMTMOVE
 70
     0
  9
$LUNITS
 70
     2
  9
$LUPREC
 70
     2
  9
$SKETCHINC
 40
1.0
  9
$FILLETRAD
 40
10.0
  9
$AUNITS
 70
     0
  9
$AUPREC
 70
     2
  9
$MENU
  1
.
  9
$ELEVATION
 40
0.0
  9
$PELEVATION
 40
0.0
  9
$THICKNESS
 40
0.0
  9
$LIMCHECK
 70
     0
  9
$CHAMFERA
 40
0.0
  9
$CHAMFERB
 40
0.0
  9
$CHAMFERC
 40
0.0
  9
$CHAMFERD
 40
0.0
  9
$SKPOLY
 70
     0
  9
$TDCREATE
 40
2458985.705404375
  9
$TDUCREATE
 40
2458985.580404375
  9
$TDUPDATE
 40
2458985.705404653
  9
$TDUUPDATE
 40
2458985.580404653
  9
$TDINDWG
 40
0.0000000116
  9
$TDUSRTIMER
 40
0.0000000116
  9
$USRTIMER
 70
     1
  9
$ANGBASE
 50
0.0
  9
$ANGDIR
 70
     0
  9
$PDMODE
 70
     0
  9
$PDSIZE
 40
-1.0
  9
$PLINEWID
 40
0.0
  9
$SPLFRAME
 70
     0
  9
$SPLINETYPE
 70
     6
  9
$SPLINESEGS
 70
     8
  9
$HANDSEED
  5
EC
  9
$SURFTAB1
 70
     6
  9
$SURFTAB2
 70
     6
  9
$SURFTYPE
 70
     6
  9
$SURFU
 70
     6
  9
$SURFV
 70
     6
  9
$UCSBASE
  2

  9
$UCSNAME
  2

  9
$UCSORG
 10
0.0
 20
0.0
 30
0.0
  9
$UCSXDIR
 10
1.0
 20
0.0
 30
0.0
  9
$UCSYDIR
 10
0.0
 20
1.0
 30
0.0
  9
$UCSORTHOREF
  2

  9
$UCSORTHOVIEW
 70
     0
  9
$UCSORGTOP
 10
0.0
 20
0.0
 30
0.0
  9
$UCSORGBOTTOM
 10
0.0
 20
0.0
 30
0.0
  9
$UCSORGLEFT
 10
0.0
 20
0.0
 30
0.0
  9
$UCSORGRIGHT
 10
0.0
 20
0.0
 30
0.0
  9
$UCSORGFRONT
 10
0.0
 20
0.0
 30
0.0
  9
$UCSORGBACK
 10
0.0
 20
0.0
 30
0.0
  9
$PUCSBASE
  2

  9
$PUCSNAME
  2

  9
$PUCSORG
 10
0.0
 20
0.0
 30
0.0
  9
$PUCSXDIR
 10
1.0
 20
0.0
 30
0.0
  9
$PUCSYDIR
 10
0.0
 20
1.0
 30
0.0
  9
$PUCSORTHOREF
  2

  9
$PUCSORTHOVIEW
 70
     0
  9
$PUCSORGTOP
 10
0.0
 20
0.0
 30
0.0
  9
$PUCSORGBOTTOM
 10
0.0
 20
0.0
 30
0.0
  9
$PUCSORGLEFT
 10
0.0
 20
0.0
 30
0.0
  9
$PUCSORGRIGHT
 10
0.0
 20
0.0
 30
0.0
  9
$PUCSORGFRONT
 10
0.0
 20
0.0
 30
0.0
  9
$PUCSORGBACK
 10
0.0
 20
0.0
 30
0.0
  9
$USERI1
 70
     0
  9
$USERI2
 70
     0
  9
$USERI3
 70
     0
  9
$USERI4
 70
     0
  9
$USERI5
 70
     0
  9
$USERR1
 40
0.0
  9
$USERR2
 40
0.0
  9
$USERR3
 40
0.0
  9
$USERR4
 40
0.0
  9
$USERR5
 40
0.0
  9
$WORLDVIEW
 70
     1
  9
$SHADEDGE
 70
     3
  9
$SHADEDIF
 70
    70
  9
$TILEMODE
 70
     1
  9
$MAXACTVP
 70
    64
  9
$PINSBASE
 10
0.0
 20
0.0
 30
0.0
  9
$PLIMCHECK
 70
     0
  9
$PEXTMIN
 10
1.0000000000E+20
 20
1.0000000000E+20
 30
1.0000000000E+20
  9
$PEXTMAX
 10
-1.0000000000E+20
 20
-1.0000000000E+20
 30
-1.0000000000E+20
  9
$PLIMMIN
 10
0.0
 20
0.0
  9
$PLIMMAX
 10
420.0
 20
297.0
  9
$UNITMODE
 70
     0
  9
$VISRETAIN
 70
     1
  9
$PLINEGEN
 70
     0
  9
$PSLTSCALE
 70
     1
  9
$TREEDEPTH
 70
  3020
  9
$CMLSTYLE
  2
Standard
  9
$CMLJUST
 70
     0
  9
$CMLSCALE
 40
20.0
  9
$PROXYGRAPHICS
 70
     1
  9
$MEASUREMENT
 70
     1
  9
$CELWEIGHT
370
    -1
  9
$ENDCAPS
280
     0
  9
$JOINSTYLE
280
     0
  9
$LWDISPLAY
290
     1
  9
$INSUNITS
 70
     4
  9
$HYPERLINKBASE
  1

  9
$STYLESHEET
  1

  9
$XEDIT
290
     1
  9
$CEPSNTYPE
380
     0
  9
$PSTYLEMODE
290
     1
  9
$FINGERPRINTGUID
  2
{aa356518-9bef-48e2-a1ee-0b8a7301a3af}
  9
$VERSIONGUID
  2
{FAEB1C32-E019-11D5-929B-00C0DF256EC4}
  9
$EXTNAMES
290
     1
  9
$PSVPSCALE
 40
0.0
  9
$OLESTARTUP
290
     0
  0
ENDSEC
  0
SECTION
  2
CLASSES
  0
CLASS
  1
ACDBDICTIONARYWDFLT
  2
AcDbDictionaryWithDefault
  3
ObjectDBX Classes
 90
        0
280
     0
281
     0
  0
CLASS
  1
VISUALSTYLE
  2
AcDbVisualStyle
  3
ObjectDBX Classes
 90
     4095
280
     0
281
     0
  0
CLASS
  1
MATERIAL
  2
AcDbMaterial
  3
ObjectDBX Classes
 90
     1153
280
     0
281
     0
  0
CLASS
  1
SCALE
  2
AcDbScale
  3
ObjectDBX Classes
 90
     1153
280
     0
281
     0
  0
CLASS
  1
TABLESTYLE
  2
AcDbTableStyle
  3
ObjectDBX Classes
 90
     4095
280
     0
281
     0
  0
CLASS
  1
MLEADERSTYLE
  2
AcDbMLeaderStyle
  3
ACDB_MLEADERSTYLE_CLASS
 90
     4095
280
     0
281
     0
  0
CLASS
  1
SUN
  2
AcDbSun
  3
SCENEOE
 90
     1153
280
     0
281
     0
  0
CLASS
  1
ACDBPLACEHOLDER
  2
AcDbPlaceHolder
  3
ObjectDBX Classes
 90
        0
280
     0
281
     0
  0
CLASS
  1
LAYOUT
  2
AcDbLayout
  3
ObjectDBX Classes
 90
        0
280
     0
281
     0
  0
ENDSEC
  0
SECTION
  2
TABLES
  0
TABLE
  2
VPORT
  5
8
330
0
100
AcDbSymbolTable
 70
     1
  0
VPORT
  5
29
330
8
100
AcDbSymbolTableRecord
100
AcDbViewportTableRecord
  2
*Active
 70
     0
 10
0.0
 20
0.0
 11
1.0
 21
1.0
 12
139.7
 22
107.95
 13
0.0
 23
0.0
 14
10.0
 24
10.0
 15
10.0
 25
10.0
 16
0.0
 26
0.0
 36
1.0
 17
0.0
 27
0.0
 37
0.0
 40
215.9
 41
1.2941176471
 42
50.0
 43
0.0
 44
0.0
 50
0.0
 51
0.0
 71
     0
 72
  2000
 73
     1
 74
     3
 75
     0
 76
     0
 77
     0
 78
     0
281
     0
 65
     1
110
0.0
120
0.0
130
0.0
111
1.0
121
0.0
131
0.0
112
0.0
122
1.0
132
0.0
 79
     0
146
0.0
  0
ENDTAB
  0
TABLE
  2
LTYPE
  5
5
330
0
100
AcDbSymbolTable
 70
     6
  0
LTYPE
  5
14
330
5
100
AcDbSymbolTableRecord
100
AcDbLinetypeTableRecord
  2
ByBlock
 70
     0
  3

 72
    65
 73
     0
 40
0.0
  0
LTYPE
  5
15
330
5
100
AcDbSymbolTableRecord
100
AcDbLinetypeTableRecord
  2
ByLayer
 70
     0
  3

 72
    65
 73
     0
 40
0.0
  0
LTYPE
  5
16
330
5
100
AcDbSymbolTableRecord
100
AcDbLinetypeTableRecord
  2
Continuous
 70
     0
  3
Solid line
 72
    65
 73
     0
 40
0.0
  0
LTYPE
  5
6E
330
5
100
AcDbSymbolTableRecord
100
AcDbLinetypeTableRecord
  2
HIDDEN
 70
     0
  3
Hidden __ __ __ __ __ __ __ __ __ __ __ __ __ __
 72
    65
 73
     2
 40
1.905
 49
1.27
 74
     0
 49
-0.635
 74
     0
  0
LTYPE
  5
6F
330
5
100
AcDbSymbolTableRecord
100
AcDbLinetypeTableRecord
  2
PHANTOM
 70
     0
  3
Phantom ______  __  __  ______  __  __  ______
 72
    65
 73
     6
 40
12.7
 49
6.35
 74
     0
 49
-1.27
 74
     0
 49
1.27
 74
     0
 49
-1.27
 74
     0
 49
1.27
 74
     0
 49
-1.27
 74
     0
  0
LTYPE
  5
70
330
5
100
AcDbSymbolTableRecord
100
AcDbLinetypeTableRecord
  2
CENTER
 70
     0
  3
Center ____ _ ____ _ ____ _ ____ _ ____ _ ____
 72
    65
 73
     4
 40
10.16
 49
6.35
 74
     0
 49
-1.27
 74
     0
 49
1.27
 74
     0
 49
-1.27
 74
     0
  0
LTYPE
  5
71
330
5
100
AcDbSymbolTableRecord
100
AcDbLinetypeTableRecord
  2
CENTERX2
 70
     0
  3
Center (2x) ________  __  ________  __  _____
 72
    65
 73
     4
 40
20.32
 49
12.7
 74
     0
 49
-2.54
 74
     0
 49
2.54
 74
     0
 49
-2.54
 74
     0
  0
LTYPE
  5
72
330
5
100
AcDbSymbolTableRecord
100
AcDbLinetypeTableRecord
  2
DOT2
 70
     0
  3
Dot (.5x) ........................................
 72
    65
 73
     2
 40
0.635
 49
0.0
 74
     0
 49
-0.635
 74
     0
  0
ENDTAB
  0
TABLE
  2
LAYER
  5
2
330
0
100
AcDbSymbolTable
 70
    17
  0
LAYER
  5
10
330
2
100
AcDbSymbolTableRecord
100
AcDbLayerTableRecord
  2
0
 70
     0
 62
     7
  6
Continuous
370
    -3
390
F
  0
LAYER
  5
73
330
2
100
AcDbSymbolTableRecord
100
AcDbLayerTableRecord
  2
FORMAT
 70
     0
 62
     7
  6
Continuous
370
    -3
390
F
  0
LAYER
  5
74
330
2
100
AcDbSymbolTableRecord
100
AcDbLayerTableRecord
  2
YARDIMCI_GEOMETRI
 70
     0
 62
    -6
  6
Continuous
290
     0
370
    -3
390
F
  0
LAYER
  5
75
330
2
100
AcDbSymbolTableRecord
100
AcDbLayerTableRecord
  2
SAYFA_CERCEVESI
 70
     0
 62
     7
  6
Continuous
370
    25
390
F
  0
LAYER
  5
76
330
2
100
AcDbSymbolTableRecord
100
AcDbLayerTableRecord
  2
ANTET
 70
     0
 62
     7
  6
Continuous
370
    -3
390
F
  0
LAYER
  5
77
330
2
100
AcDbSymbolTableRecord
100
AcDbLayerTableRecord
  2
OLCU
 70
     0
 62
   150
  6
Continuous
370
    -3
390
F
  0
LAYER
  5
78
330
2
100
AcDbSymbolTableRecord
100
AcDbLayerTableRecord
  2
METIN
 70
     0
 62
    96
  6
Continuous
370
    -3
390
F
  0
LAYER
  5
79
330
2
100
AcDbSymbolTableRecord
100
AcDbLayerTableRecord
  2
BALON
 70
     0
 62
     5
  6
Continuous
370
    -3
390
F
  0
LAYER
  5
7A
330
2
100
AcDbSymbolTableRecord
100
AcDbLayerTableRecord
  2
VURGU
 70
     0
 62
     7
  6
Continuous
370
    -3
390
F
  0
LAYER
  5
7B
330
2
100
AcDbSymbolTableRecord
100
AcDbLayerTableRecord
  2
SILIK
 70
     0
 62
     7
  6
Continuous
370
    -3
390
F
  0
LAYER
  5
7C
330
2
100
AcDbSymbolTableRecord
100
AcDbLayerTableRecord
  2
MODEL
 70
     0
 62
     7
  6
Continuous
370
    -3
390
F
  0
LAYER
  5
7D
330
2
100
AcDbSymbolTableRecord
100
AcDbLayerTableRecord
  2
DETAYLANDıRMA
 70
     0
 62
   190
  6
Continuous
370
    -3
390
F
  0
LAYER
  5
7E
330
2
100
AcDbSymbolTableRecord
100
AcDbLayerTableRecord
  2
TOLERANS
 70
     0
 62
   230
  6
Continuous
370
    -3
390
F
  0
LAYER
  5
7F
330
2
100
AcDbSymbolTableRecord
100
AcDbLayerTableRecord
  2
MERKEZ_CIZGILERI
 70
     0
 62
    30
  6
Continuous
370
    -3
390
F
  0
LAYER
  5
80
330
2
100
AcDbSymbolTableRecord
100
AcDbLayerTableRecord
  2
KESIT-DETAY_CIZGILERI
 70
     0
 62
     7
  6
Continuous
370
    -3
390
F
  0
LAYER
  5
81
330
2
100
AcDbSymbolTableRecord
100
AcDbLayerTableRecord
  2
\U+041E\U+0421\U+0415\U+0412\U+042B\U+0415
 70
     0
 62
     7
  6
Continuous
370
    -3
390
F
  0
LAYER
  5
82
330
2
100
AcDbSymbolTableRecord
100
AcDbLayerTableRecord
  2
\U+0412\U+041E\U+0414\U+042F\U+041D\U+042B\U+0415_\U+0417\U+041D\U+0410\U+041A\U+0418
 70
     0
 62
    11
  6
Continuous
370
    -3
390
F
  0
ENDTAB
  0
TABLE
  2
STYLE
  5
3
330
0
100
AcDbSymbolTable
 70
     1
  0
STYLE
  5
11
330
3
100
AcDbSymbolTableRecord
100
AcDbTextStyleTableRecord
  2
Standard
 70
     0
 40
0.0
 41
1.0
 50
0.0
 71
     0
 42
3.5
  3
txt
  4

  0
ENDTAB
  0
TABLE
  2
VIEW
  5
6
330
0
100
AcDbSymbolTable
 70
     0
  0
ENDTAB
  0
TABLE
  2
UCS
  5
7
330
0
100
AcDbSymbolTable
 70
     0
  0
ENDTAB
  0
TABLE
  2
APPID
  5
9
330
0
100
AcDbSymbolTable
 70
     1
  0
APPID
  5
12
330
9
100
AcDbSymbolTableRecord
100
AcDbRegAppTableRecord
  2
ACAD
 70
     0
  0
ENDTAB
  0
TABLE
  2
DIMSTYLE
  5
A
330
0
100
AcDbSymbolTable
 70
     1
100
AcDbDimStyleTable
  0
DIMSTYLE
105
27
330
A
100
AcDbSymbolTableRecord
100
AcDbDimStyleTableRecord
  2
ISO-25
 70
     0
 41
2.5
 42
0.625
 43
3.75
 44
1.25
 73
     0
 74
     0
 77
     1
 78
     8
140
2.5
141
2.5
143
0.0393700787
147
0.625
171
     3
172
     1
178
     0
271
     2
272
     2
274
     3
278
    44
283
     0
284
     8
340
11
  0
ENDTAB
  0
TABLE
  2
BLOCK_RECORD
  5
1
330
0
100
AcDbSymbolTable
 70
     2
  0
BLOCK_RECORD
  5
1F
330
1
100
AcDbSymbolTableRecord
100
AcDbBlockTableRecord
  2
*Model_Space
340
22
  0
BLOCK_RECORD
  5
1B
330
1
100
AcDbSymbolTableRecord
100
AcDbBlockTableRecord
  2
*Paper_Space
340
1E
  0
BLOCK_RECORD
  5
23
330
1
100
AcDbSymbolTableRecord
100
AcDbBlockTableRecord
  2
*Paper_Space0
340
26
  0
BLOCK_RECORD
  5
88
330
1
100
AcDbSymbolTableRecord
100
AcDbBlockTableRecord
  2
SW_CENTERMARKSYMBOL_0
340
0
102
{BLKREFS
331
93
102
}
  0
ENDTAB
  0
ENDSEC
  0
SECTION
  2
BLOCKS
  0
BLOCK
  5
20
330
1F
100
AcDbEntity
  8
0
100
AcDbBlockBegin
  2
*Model_Space
 70
     0
 10
0.0
 20
0.0
 30
0.0
  3
*Model_Space
  1

  0
ENDBLK
  5
21
330
1F
100
AcDbEntity
  8
0
100
AcDbBlockEnd
  0
BLOCK
  5
1C
330
1B
100
AcDbEntity
 67
     1
  8
0
100
AcDbBlockBegin
  2
*Paper_Space
 70
     0
 10
0.0
 20
0.0
 30
0.0
  3
*Paper_Space
  1

  0
ENDBLK
  5
1D
330
1B
100
AcDbEntity
 67
     1
  8
0
100
AcDbBlockEnd
  0
BLOCK
  5
24
330
23
100
AcDbEntity
  8
0
100
AcDbBlockBegin
  2
*Paper_Space0
 70
     0
 10
0.0
 20
0.0
 30
0.0
  3
*Paper_Space0
  1

  0
ENDBLK
  5
25
330
23
100
AcDbEntity
  8
0
100
AcDbBlockEnd
  0
BLOCK
  5
89
330
88
100
AcDbEntity
  8
0
100
AcDbBlockBegin
  2
SW_CENTERMARKSYMBOL_0
 70
     0
 10
0.0
 20
0.0
 30
0.0
  3
SW_CENTERMARKSYMBOL_0
  1

  0
LINE
  5
8B
330
88
100
AcDbEntity
  8
FORMAT
 62
     0
100
AcDbLine
 10
0.0
 20
0.0
 30
0.0
 11
0.0
 21
2.5
 31
0.0
  0
LINE
  5
8C
330
88
100
AcDbEntity
  8
FORMAT
 62
     0
100
AcDbLine
 10
0.0
 20
0.0
 30
0.0
 11
-2.5
 21
0.0
 31
0.0
  0
LINE
  5
8D
330
88
100
AcDbEntity
  8
FORMAT
 62
     0
100
AcDbLine
 10
0.0
 20
0.0
 30
0.0
 11
0.0
 21
-2.5
 31
0.0
  0
LINE
  5
8E
330
88
100
AcDbEntity
  8
FORMAT
 62
     0
100
AcDbLine
 10
0.0
 20
0.0
 30
0.0
 11
2.5
 21
0.0
 31
0.0
  0
LINE
  5
8F
330
88
100
AcDbEntity
  8
FORMAT
 62
     0
100
AcDbLine
 10
0.0
 20
5.0
 30
0.0
 11
0.0
 21
57.5
 31
0.0
  0
LINE
  5
90
330
88
100
AcDbEntity
  8
FORMAT
 62
     0
100
AcDbLine
 10
-5.0
 20
0.0
 30
0.0
 11
-57.5
 21
0.0
 31
0.0
  0
LINE
  5
91
330
88
100
AcDbEntity
  8
FORMAT
 62
     0
100
AcDbLine
 10
0.0
 20
-5.0
 30
0.0
 11
0.0
 21
-57.5
 31
0.0
  0
LINE
  5
92
330
88
100
AcDbEntity
  8
FORMAT
 62
     0
100
AcDbLine
 10
5.0
 20
0.0
 30
0.0
 11
57.5
 21
0.0
 31
0.0
  0
ENDBLK
  5
8A
330
88
100
AcDbEntity
  8
0
100
AcDbBlockEnd
  0
ENDSEC
  0
SECTION
  2
ENTITIES
  0
CIRCLE
  5
83
330
1F
100
AcDbEntity
  8
0
  6
Continuous
 62
     7
370
    25
100
AcDbCircle
 10
136.0804557792
 20
118.8813202377
 30
0.0
 40
55.00000000000003
  0
CIRCLE
  5
84
330
1F
100
AcDbEntity
  8
0
  6
Continuous
 62
     7
370
    25
100
AcDbCircle
 10
136.0804557792
 20
118.8813202377
 30
0.0
 40
48.40000000000002
  0
CIRCLE
  5
85
330
1F
100
AcDbEntity
  8
0
  6
Continuous
 62
     7
370
    25
100
AcDbCircle
 10
136.0804557792
 20
118.8813202377
 30
0.0
 40
48.22294853060041
  0
CIRCLE
  5
86
330
1F
100
AcDbEntity
  8
0
  6
Continuous
 62
     7
370
    25
100
AcDbCircle
 10
136.0804557792
 20
118.8813202377
 30
0.0
 40
33.17705146939961
  0
CIRCLE
  5
87
330
1F
100
AcDbEntity
  8
0
  6
Continuous
 62
     7
370
    25
100
AcDbCircle
 10
136.0804557792
 20
118.8813202377
 30
0.0
 40
33.00000000000001
  0
INSERT
  5
93
330
1F
100
AcDbEntity
  8
FORMAT
 62
     7
100
AcDbBlockReference
  2
SW_CENTERMARKSYMBOL_0
 10
136.0804557792
 20
118.8813202377
 30
0.0
  0
LINE
  5
94
330
1F
100
AcDbEntity
  8
0
  6
Continuous
 62
     7
370
    25
100
AcDbLine
 10
-122.1587286533
 20
173.8813199397
 30
0.0
 11
-203.8902194441
 21
173.8813199397
 31
0.0
  0
LINE
  5
95
330
1F
100
AcDbEntity
  8
0
  6
Continuous
 62
     7
370
    25
100
AcDbLine
 10
-203.8902194441
 20
63.8813205357
 30
0.0
 11
-122.1587286533
 21
63.8813205357
 31
0.0
  0
ARC
  5
96
330
1F
100
AcDbEntity
  8
0
  6
Continuous
 62
     7
370
    25
100
AcDbCircle
 10
-122.1587278107
 20
171.8813202377
 30
0.0
 40
2.0
100
AcDbArc
 50
74.707012314
 51
90.0
  0
ARC
  5
97
330
1F
100
AcDbEntity
  8
0
  6
Continuous
 62
     7
370
    25
100
AcDbCircle
 10
-122.1587278107
 20
65.8813202377
 30
0.0
 40
2.000000000000007
100
AcDbArc
 50
270.0
 51
285.292987686
  0
LINE
  5
98
330
1F
100
AcDbEntity
  8
0
  6
Continuous
 62
     7
370
    25
100
AcDbLine
 10
-121.6312182338
 20
63.9521420296
 30
0.0
 11
-58.1492186726
 21
81.310500979
 31
0.0
  0
LINE
  5
99
330
1F
100
AcDbEntity
  8
0
  6
Continuous
 62
     7
370
    25
100
AcDbLine
 10
-58.1492186726
 20
156.4521394964
 30
0.0
 11
-121.6312182338
 21
173.8104984458
 31
0.0
  0
ARC
  5
9A
330
1F
100
AcDbEntity
  8
0
  6
Continuous
 62
     7
370
    25
100
AcDbCircle
 10
-57.621709833
 20
158.3813202377
 30
0.0
 40
2.000000000000002
100
AcDbArc
 50
254.707012314
 51
270.0
  0
ARC
  5
9B
330
1F
100
AcDbEntity
  8
0
  6
Continuous
 62
     7
370
    25
100
AcDbCircle
 10
-57.621709833
 20
79.3813202377
 30
0.0
 40
2.000000000000002
100
AcDbArc
 50
90.0
 51
105.292987686
  0
LINE
  5
9C
330
1F
100
AcDbEntity
  8
0
  6
Continuous
 62
     7
370
    25
100
AcDbLine
 10
12.1097787082
 20
156.3813217278
 30
0.0
 11
-57.6217101157
 21
156.3813217278
 31
0.0
  0
LINE
  5
9D
330
1F
100
AcDbEntity
  8
0
  6
Continuous
 62
     7
370
    25
100
AcDbLine
 10
-57.6217101157
 20
81.3813187476
 30
0.0
 11
12.1097787082
 21
81.3813187476
 31
0.0
  0
LINE
  5
9E
330
1F
100
AcDbEntity
  8
0
  6
Continuous
 62
     7
370
    25
100
AcDbLine
 10
-203.8902194441
 20
173.8813199397
 30
0.0
 11
-203.8902194441
 21
63.8813205357
 31
0.0
  0
LINE
  5
9F
330
1F
100
AcDbEntity
  8
0
  6
Continuous
 62
     7
370
    25
100
AcDbLine
 10
12.1097787082
 20
156.3813217278
 30
0.0
 11
12.1097787082
 21
81.3813187476
 31
0.0
  0
LINE
  5
A0
330
1F
100
AcDbEntity
  8
0
  6
Continuous
 62
     1
370
    25
100
AcDbLine
 10
-122.1587286533
 20
173.8813199397
 30
0.0
 11
-122.1587286533
 21
63.8813205357
 31
0.0
  0
LINE
  5
A1
330
1F
100
AcDbEntity
  8
0
  6
Continuous
 62
     1
370
    25
100
AcDbLine
 10
-121.6312182338
 20
173.8104984458
 30
0.0
 11
-121.6312182338
 21
63.9521420296
 31
0.0
  0
LINE
  5
A2
330
1F
100
AcDbEntity
  8
0
  6
Continuous
 62
     1
370
    25
100
AcDbLine
 10
-58.1492186726
 20
156.4521394964
 30
0.0
 11
-58.1492186726
 21
81.310500979
 31
0.0
  0
LINE
  5
A3
330
1F
100
AcDbEntity
  8
0
  6
Continuous
 62
     1
370
    25
100
AcDbLine
 10
-57.6217101157
 20
156.3813217278
 30
0.0
 11
-57.6217101157
 21
81.3813187476
 31
0.0
  0
LINE
  5
A4
330
1F
100
AcDbEntity
  8
0
  6
Continuous
 62
     7
370
    25
100
AcDbLine
 10
191.0804554812
 20
335.7304903434
 30
0.0
 11
191.0804554812
 21
417.4619811342
 31
0.0
  0
LINE
  5
A5
330
1F
100
AcDbEntity
  8
0
  6
Continuous
 62
     7
370
    25
100
AcDbLine
 10
81.0804560772
 20
417.4619811342
 30
0.0
 11
81.0804560772
 21
335.7304903434
 31
0.0
  0
ARC
  5
A6
330
1F
100
AcDbEntity
  8
0
  6
Continuous
 62
     7
370
    25
100
AcDbCircle
 10
189.0804557792
 20
335.7304895008
 30
0.0
 40
2.0
100
AcDbArc
 50
344.707012314
 51
0.0
  0
ARC
  5
A7
330
1F
100
AcDbEntity
  8
0
  6
Continuous
 62
     7
370
    25
100
AcDbCircle
 10
83.0804557792
 20
335.7304895008
 30
0.0
 40
2.0
100
AcDbArc
 50
180.0
 51
195.292987686
  0
LINE
  5
A8
330
1F
100
AcDbEntity
  8
0
  6
Continuous
 62
     7
370
    25
100
AcDbLine
 10
81.1512775711
 20
335.2029799239
 30
0.0
 11
98.5096365205
 21
271.7209803627
 31
0.0
  0
LINE
  5
A9
330
1F
100
AcDbEntity
  8
0
  6
Continuous
 62
     7
370
    25
100
AcDbLine
 10
173.6512750379
 20
271.7209803627
 30
0.0
 11
191.0096339873
 21
335.2029799239
 31
0.0
  0
ARC
  5
AA
330
1F
100
AcDbEntity
  8
0
  6
Continuous
 62
     7
370
    25
100
AcDbCircle
 10
175.5804557792
 20
271.1934715231
 30
0.0
 40
2.000000000000009
100
AcDbArc
 50
164.707012314
 51
180.0
  0
ARC
  5
AB
330
1F
100
AcDbEntity
  8
0
  6
Continuous
 62
     7
370
    25
100
AcDbCircle
 10
96.5804557792
 20
271.1934715231
 30
0.0
 40
2.000000000000009
100
AcDbArc
 50
0.0
 51
15.292987686
  0
LINE
  5
AC
330
1F
100
AcDbEntity
  8
0
  6
Continuous
 62
     7
370
    25
100
AcDbLine
 10
173.5804572693
 20
201.461982982
 30
0.0
 11
173.5804572693
 21
271.1934718059
 31
0.0
  0
LINE
  5
AD
330
1F
100
AcDbEntity
  8
0
  6
Continuous
 62
     7
370
    25
100
AcDbLine
 10
98.5804542891
 20
271.1934718059
 30
0.0
 11
98.5804542891
 21
201.461982982
 31
0.0
  0
LINE
  5
AE
330
1F
100
AcDbEntity
  8
0
  6
Continuous
 62
     7
370
    25
100
AcDbLine
 10
191.0804554812
 20
417.4619811342
 30
0.0
 11
81.0804560772
 21
417.4619811342
 31
0.0
  0
LINE
  5
AF
330
1F
100
AcDbEntity
  8
0
  6
Continuous
 62
     7
370
    25
100
AcDbLine
 10
173.5804572693
 20
201.461982982
 30
0.0
 11
98.5804542891
 21
201.461982982
 31
0.0
  0
LINE
  5
B0
330
1F
100
AcDbEntity
  8
0
  6
Continuous
 62
     1
370
    25
100
AcDbLine
 10
191.0804554812
 20
335.7304903434
 30
0.0
 11
81.0804560772
 21
335.7304903434
 31
0.0
  0
LINE
  5
B1
330
1F
100
AcDbEntity
  8
0
  6
Continuous
 62
     1
370
    25
100
AcDbLine
 10
191.0096339873
 20
335.2029799239
 30
0.0
 11
81.1512775711
 21
335.2029799239
 31
0.0
  0
LINE
  5
B2
330
1F
100
AcDbEntity
  8
0
  6
Continuous
 62
     1
370
    25
100
AcDbLine
 10
173.6512750379
 20
271.7209803627
 30
0.0
 11
98.5096365205
 21
271.7209803627
 31
0.0
  0
LINE
  5
B3
330
1F
100
AcDbEntity
  8
0
  6
Continuous
 62
     1
370
    25
100
AcDbLine
 10
173.5804572693
 20
271.1934718059
 30
0.0
 11
98.5804542891
 21
271.1934718059
 31
0.0
  0
LINE
  5
B4
330
1F
100
AcDbEntity
  8
0
  6
Continuous
 62
     7
370
    25
100
AcDbLine
 10
407.827349122
 20
63.8813205357
 30
0.0
 11
489.5588399128
 21
63.8813205357
 31
0.0
  0
LINE
  5
B5
330
1F
100
AcDbEntity
  8
0
  6
Continuous
 62
     7
370
    25
100
AcDbLine
 10
489.5588399128
 20
173.8813199397
 30
0.0
 11
407.827349122
 21
173.8813199397
 31
0.0
  0
ARC
  5
B6
330
1F
100
AcDbEntity
  8
0
  6
Continuous
 62
     7
370
    25
100
AcDbCircle
 10
407.8273482794
 20
65.8813202377
 30
0.0
 40
2.000000000000007
100
AcDbArc
 50
254.707012314
 51
270.0
  0
ARC
  5
B7
330
1F
100
AcDbEntity
  8
0
  6
Continuous
 62
     7
370
    25
100
AcDbCircle
 10
407.8273482794
 20
171.8813202377
 30
0.0
 40
2.0
100
AcDbArc
 50
90.0
 51
105.292987686
  0
LINE
  5
B8
330
1F
100
AcDbEntity
  8
0
  6
Continuous
 62
     7
370
    25
100
AcDbLine
 10
407.2998387025
 20
173.8104984458
 30
0.0
 11
343.8178391413
 21
156.4521394964
 31
0.0
  0
LINE
  5
B9
330
1F
100
AcDbEntity
  8
0
  6
Continuous
 62
     7
370
    25
100
AcDbLine
 10
343.8178391413
 20
81.310500979
 30
0.0
 11
407.2998387025
 21
63.9521420296
 31
0.0
  0
ARC
  5
BA
330
1F
100
AcDbEntity
  8
0
  6
Continuous
 62
     7
370
    25
100
AcDbCircle
 10
343.2903303017
 20
79.3813202377
 30
0.0
 40
2.000000000000009
100
AcDbArc
 50
74.707012314
 51
90.0
  0
ARC
  5
BB
330
1F
100
AcDbEntity
  8
0
  6
Continuous
 62
     7
370
    25
100
AcDbCircle
 10
343.2903303017
 20
158.3813202377
 30
0.0
 40
2.000000000000009
100
AcDbArc
 50
270.0
 51
285.292987686
  0
LINE
  5
BC
330
1F
100
AcDbEntity
  8
0
  6
Continuous
 62
     7
370
    25
100
AcDbLine
 10
273.5588417606
 20
81.3813187476
 30
0.0
 11
343.2903305845
 21
81.3813187476
 31
0.0
  0
LINE
  5
BD
330
1F
100
AcDbEntity
  8
0
  6
Continuous
 62
     7
370
    25
100
AcDbLine
 10
343.2903305845
 20
156.3813217278
 30
0.0
 11
273.5588417606
 21
156.3813217278
 31
0.0
  0
LINE
  5
BE
330
1F
100
AcDbEntity
  8
0
  6
Continuous
 62
     7
370
    25
100
AcDbLine
 10
489.5588399128
 20
118.8813202377
 30
0.0
 11
489.5588399128
 21
173.8813199397
 31
0.0
  0
LINE
  5
BF
330
1F
100
AcDbEntity
  8
0
  6
Continuous
 62
     7
370
    25
100
AcDbLine
 10
489.5588399128
 20
63.8813205357
 30
0.0
 11
489.5588399128
 21
118.8813202377
 31
0.0
  0
LINE
  5
C0
330
1F
100
AcDbEntity
  8
0
  6
Continuous
 62
     7
370
    25
100
AcDbLine
 10
273.5588417606
 20
118.8813202377
 30
0.0
 11
273.5588417606
 21
156.3813217278
 31
0.0
  0
LINE
  5
C1
330
1F
100
AcDbEntity
  8
0
  6
Continuous
 62
     7
370
    25
100
AcDbLine
 10
273.5588417606
 20
81.3813187476
 30
0.0
 11
273.5588417606
 21
118.8813202377
 31
0.0
  0
LINE
  5
C2
330
1F
100
AcDbEntity
  8
0
  6
Continuous
 62
     1
370
    25
100
AcDbLine
 10
407.827349122
 20
118.8813202377
 30
0.0
 11
407.827349122
 21
173.8813199397
 31
0.0
  0
LINE
  5
C3
330
1F
100
AcDbEntity
  8
0
  6
Continuous
 62
     1
370
    25
100
AcDbLine
 10
407.827349122
 20
63.8813205357
 30
0.0
 11
407.827349122
 21
118.8813202377
 31
0.0
  0
LINE
  5
C4
330
1F
100
AcDbEntity
  8
0
  6
Continuous
 62
     1
370
    25
100
AcDbLine
 10
407.2998387025
 20
118.8813202377
 30
0.0
 11
407.2998387025
 21
173.8104984458
 31
0.0
  0
LINE
  5
C5
330
1F
100
AcDbEntity
  8
0
  6
Continuous
 62
     1
370
    25
100
AcDbLine
 10
407.2998387025
 20
63.9521420296
 30
0.0
 11
407.2998387025
 21
118.8813202377
 31
0.0
  0
LINE
  5
C6
330
1F
100
AcDbEntity
  8
0
  6
Continuous
 62
     1
370
    25
100
AcDbLine
 10
343.8178391413
 20
118.8813202377
 30
0.0
 11
343.8178391413
 21
156.4521394964
 31
0.0
  0
LINE
  5
C7
330
1F
100
AcDbEntity
  8
0
  6
Continuous
 62
     1
370
    25
100
AcDbLine
 10
343.8178391413
 20
81.310500979
 30
0.0
 11
343.8178391413
 21
118.8813202377
 31
0.0
  0
LINE
  5
C8
330
1F
100
AcDbEntity
  8
0
  6
Continuous
 62
     1
370
    25
100
AcDbLine
 10
343.2903305845
 20
118.8813202377
 30
0.0
 11
343.2903305845
 21
156.3813217278
 31
0.0
  0
LINE
  5
C9
330
1F
100
AcDbEntity
  8
0
  6
Continuous
 62
     1
370
    25
100
AcDbLine
 10
343.2903305845
 20
81.3813187476
 30
0.0
 11
343.2903305845
 21
118.8813202377
 31
0.0
  0
LINE
  5
CA
330
1F
100
AcDbEntity
  8
0
  6
Continuous
 62
     7
370
    25
100
AcDbLine
 10
81.0804560772
 20
-116.9741730168
 30
0.0
 11
81.0804560772
 21
-198.7056638077
 31
0.0
  0
LINE
  5
CB
330
1F
100
AcDbEntity
  8
0
  6
Continuous
 62
     7
370
    25
100
AcDbLine
 10
191.0804554812
 20
-198.7056638077
 30
0.0
 11
191.0804554812
 21
-116.9741730168
 31
0.0
  0
ARC
  5
CC
330
1F
100
AcDbEntity
  8
0
  6
Continuous
 62
     7
370
    25
100
AcDbCircle
 10
83.0804557792
 20
-116.9741721743
 30
0.0
 40
2.0
100
AcDbArc
 50
164.707012314
 51
180.0
  0
ARC
  5
CD
330
1F
100
AcDbEntity
  8
0
  6
Continuous
 62
     7
370
    25
100
AcDbCircle
 10
189.0804557792
 20
-116.9741721743
 30
0.0
 40
2.0
100
AcDbArc
 50
0.0
 51
15.292987686
  0
LINE
  5
CE
330
1F
100
AcDbEntity
  8
0
  6
Continuous
 62
     7
370
    25
100
AcDbLine
 10
191.0096339873
 20
-116.4466625973
 30
0.0
 11
173.6512750379
 21
-52.9646630361
 31
0.0
  0
LINE
  5
CF
330
1F
100
AcDbEntity
  8
0
  6
Continuous
 62
     7
370
    25
100
AcDbLine
 10
98.5096365205
 20
-52.9646630361
 30
0.0
 11
81.1512775711
 21
-116.4466625973
 31
0.0
  0
ARC
  5
D0
330
1F
100
AcDbEntity
  8
0
  6
Continuous
 62
     7
370
    25
100
AcDbCircle
 10
96.5804557792
 20
-52.4371541965
 30
0.0
 40
2.000000000000004
100
AcDbArc
 50
344.707012314
 51
0.0
  0
ARC
  5
D1
330
1F
100
AcDbEntity
  8
0
  6
Continuous
 62
     7
370
    25
100
AcDbCircle
 10
175.5804557792
 20
-52.4371541965
 30
0.0
 40
2.000000000000004
100
AcDbArc
 50
180.0
 51
195.292987686
  0
LINE
  5
D2
330
1F
100
AcDbEntity
  8
0
  6
Continuous
 62
     7
370
    25
100
AcDbLine
 10
98.5804542891
 20
17.2943343446
 30
0.0
 11
98.5804542891
 21
-52.4371544793
 31
0.0
  0
LINE
  5
D3
330
1F
100
AcDbEntity
  8
0
  6
Continuous
 62
     7
370
    25
100
AcDbLine
 10
173.5804572693
 20
-52.4371544793
 30
0.0
 11
173.5804572693
 21
17.2943343446
 31
0.0
  0
LINE
  5
D4
330
1F
100
AcDbEntity
  8
0
  6
Continuous
 62
     7
370
    25
100
AcDbLine
 10
81.0804560772
 20
-198.7056638077
 30
0.0
 11
191.0804554812
 21
-198.7056638077
 31
0.0
  0
LINE
  5
D5
330
1F
100
AcDbEntity
  8
0
  6
Continuous
 62
     7
370
    25
100
AcDbLine
 10
98.5804542891
 20
17.2943343446
 30
0.0
 11
173.5804572693
 21
17.2943343446
 31
0.0
  0
LINE
  5
D6
330
1F
100
AcDbEntity
  8
0
  6
Continuous
 62
     1
370
    25
100
AcDbLine
 10
81.0804560772
 20
-116.9741730168
 30
0.0
 11
191.0804554812
 21
-116.9741730168
 31
0.0
  0
LINE
  5
D7
330
1F
100
AcDbEntity
  8
0
  6
Continuous
 62
     1
370
    25
100
AcDbLine
 10
81.1512775711
 20
-116.4466625973
 30
0.0
 11
191.0096339873
 21
-116.4466625973
 31
0.0
  0
LINE
  5
D8
330
1F
100
AcDbEntity
  8
0
  6
Continuous
 62
     1
370
    25
100
AcDbLine
 10
98.5096365205
 20
-52.9646630361
 30
0.0
 11
173.6512750379
 21
-52.9646630361
 31
0.0
  0
LINE
  5
D9
330
1F
100
AcDbEntity
  8
0
  6
Continuous
 62
     1
370
    25
100
AcDbLine
 10
98.5804542891
 20
-52.4371544793
 30
0.0
 11
173.5804572693
 21
-52.4371544793
 31
0.0
  0
LINE
  5
DA
330
1F
100
AcDbEntity
  8
0
  6
Continuous
 62
     7
370
    25
100
AcDbLine
 10
384.0823570068
 20
0.1720991386
 30
0.0
 11
326.2894656321
 21
33.5352251751
 31
0.0
  0
LINE
  5
DB
330
1F
100
AcDbEntity
  8
0
  6
Continuous
 62
     7
370
    25
100
AcDbLine
 10
271.2939343501
 20
-61.7301529593
 30
0.0
 11
329.0868257247
 21
-95.0932789958
 31
0.0
  0
SPLINE
  5
DC
330
1F
100
AcDbEntity
  8
0
  6
Continuous
 62
     7
370
    25
100
AcDbSpline
210
0.0
220
0.0
230
1.0
 70
     8
 71
     3
 72
    11
 73
     7
 74
     0
 42
0.000000001
 43
0.00000001
 40
0.0
 40
0.0
 40
0.0
 40
0.0
 40
0.130740643903398
 40
0.4995285400592884
 40
0.8670357879504795
 40
1.0
 40
1.0
 40
1.0
 40
1.0
 10
387.7800291013677
 20
-2.607016224155746
 30
0.0
 10
387.6256407526084
 20
-2.454537918543345
 30
0.0
 10
387.0357600226731
 20
-1.8719550038565
 30
0.0
 10
385.9076468930018
 20
-1.00432642498953
 30
0.0
 10
384.7419218846526
 20
-0.1873977835677096
 30
0.0
 10
384.0188290438848
 20
0.1940808964998389
 30
0.0
 10
383.8267192484077
 20
0.2954313553549318
 30
0.0
  0
SPLINE
  5
DD
330
1F
100
AcDbEntity
  8
0
  6
Continuous
 62
     7
370
    25
100
AcDbSpline
210
0.0
220
0.0
230
1.0
 70
     8
 71
     3
 72
    11
 73
     7
 74
     0
 42
0.000000001
 43
0.00000001
 40
0.0
 40
0.0
 40
0.0
 40
0.0
 40
0.0901895499410378
 40
0.4552964295040923
 40
0.8203570190246533
 40
1.0
 40
1.0
 40
1.0
 40
1.0
 10
328.85683168951
 20
-94.94063021540653
 30
0.0
 10
328.9814868345201
 20
-95.02036105161882
 30
0.0
 10
329.6107730708914
 20
-95.42285962348852
 30
0.0
 10
330.8294591815023
 20
-96.00144398549578
 30
0.0
 10
332.2104329329636
 20
-96.58374013349996
 30
0.0
 10
333.0831229111997
 20
-96.83104708742263
 30
0.0
 10
333.3709356549548
 20
-96.9126088043362
 30
0.0
  0
LINE
  5
DE
330
1F
100
AcDbEntity
  8
0
  6
Continuous
 62
     7
370
    25
100
AcDbLine
 10
335.3246686227
 20
-97.415501967
 30
0.0
 11
387.0495175325
 21
-107.6107365037
 31
0.0
  0
LINE
  5
DF
330
1F
100
AcDbEntity
  8
0
  6
Continuous
 62
     7
370
    25
100
AcDbLine
 10
423.9082628639
 20
-43.7625983824
 30
0.0
 11
389.2127809234
 21
-4.0684396557
 31
0.0
  0
LINE
  5
E0
330
1F
100
AcDbEntity
  8
0
  6
Continuous
 62
     7
370
    25
100
AcDbLine
 10
470.2752397548
 20
-69.7927063129
 30
0.0
 11
422.607983855
 21
-42.2749852131
 31
0.0
  0
LINE
  5
E1
330
1F
100
AcDbEntity
  8
0
  6
Continuous
 62
     7
370
    25
100
AcDbLine
 10
385.1110311871
 20
-107.2286510168
 30
0.0
 11
432.7782870869
 21
-134.7463721166
 31
0.0
  0
LWPOLYLINE
  5
E2
330
1F
100
AcDbEntity
  8
0
  6
Continuous
 62
     7
370
    25
100
AcDbPolyline
 90
      110
 70
   128
 43
0.0
 10
259.9008272365
 20
-36.5486868456
 10
259.9654225502
 20
-33.9240573299
 10
260.1589951229
 20
-31.2335655791
 10
260.4809022151
 20
-28.4861494433
 10
260.9300743506
 20
-25.690934567
 10
261.5050179504
 20
-22.857207963
 10
262.2038232354
 20
-19.9943847433
 10
263.024172129
 20
-17.111969716
 10
263.9633356227
 20
-14.2195414157
 10
265.0181948498
 20
-11.3267087586
 10
266.1852489876
 20
-8.4430775837
 10
267.4606152577
 20
-5.5782324008
 10
268.8400631702
 20
-2.7416846829
 10
270.319003987
 20
0.0571377818
 10
271.8925302344
 20
2.8089410762
 10
273.555413069
 20
5.5045834061
 10
275.3021286194
 20
8.1351085579
 10
277.1268737915
 20
10.6917793576
 10
279.0235873416
 20
13.1661050451
 10
280.9859683159
 20
15.5498610451
 10
283.0074971237
 20
17.8351345925
 10
285.0814605623
 20
20.0143270116
 10
287.2009689391
 20
22.0802092282
 10
289.3589791205
 20
24.0259076987
 10
291.5483241667
 20
25.8449671461
 10
293.7617311122
 20
27.5313395308
 10
295.9918469782
 20
29.0794264448
 10
298.2312639622
 20
30.4840845269
 10
300.4725424868
 20
31.7406478947
 10
302.7082373773
 20
32.8449402142
 10
304.9309218977
 20
33.7932946599
 10
307.1332126119
 20
34.5825621823
 10
309.3077937488
 20
35.210116449
 10
311.4474410752
 20
35.6738797926
 10
313.5450475787
 20
35.9723045776
 10
315.5936452
 20
36.1044039968
 10
317.58642854
 20
36.0697383807
 10
319.5167779094
 20
35.8684224199
 10
321.3782804018
 20
35.5011221212
 10
323.1647509671
 20
34.9690639311
 10
324.8702574364
 20
34.2740096383
 10
326.4891363269
 20
33.4182715815
 10
328.0160033788
 20
32.4046883133
 10
329.4457930677
 20
31.2366322015
 10
330.7737507022
 20
29.9179805321
 10
331.9954693025
 20
28.453112464
 10
333.1068869661
 20
26.8468968616
 10
334.1043132096
 20
25.1046679581
 10
334.9844342369
 20
23.232213187
 10
335.7443261105
 20
21.235753409
 10
336.3814652878
 20
19.1219193369
 10
336.8937365238
 20
16.8977348045
 10
337.2794355054
 20
14.5705871083
 10
337.5372820221
 20
12.148207234
 10
337.6664199659
 20
9.6386415297
 10
337.6664199659
 20
7.0502269905
 10
337.5372820221
 20
4.39156179
 10
337.2794355054
 20
1.6714786643
 10
336.8937365238
 20
-1.1009875972
 10
336.3814652878
 20
-3.9166279093
 10
335.7443261105
 20
-6.7660872172
 10
334.9844342369
 20
-9.6398994775
 10
334.1043132096
 20
-12.528520357
 10
333.1068869661
 20
-15.4223530887
 10
331.9954693025
 20
-18.3117842114
 10
330.7737507022
 20
-21.1872185507
 10
329.4457930677
 20
-24.0390974692
 10
328.0160033788
 20
-26.8579536175
 10
326.4891363269
 20
-29.6344200598
 10
324.8702574364
 20
-32.3592758984
 10
323.1647509671
 20
-35.0234660465
 10
321.3782804018
 20
-37.6181392472
 10
319.5167779094
 20
-40.1346845757
 10
317.58642854
 20
-42.5647344784
 10
315.5936452
 20
-44.9002187646
 10
313.5450475787
 20
-47.1333798129
 10
311.4474410752
 20
-49.2567999465
 10
309.3077937488
 20
-51.2634208223
 10
307.1332126119
 20
-53.1465844942
 10
304.9309218977
 20
-54.9000277072
 10
302.7082373773
 20
-56.5179301845
 10
300.4725424868
 20
-57.9949162414
 10
298.2312639622
 20
-59.326077977
 10
295.9918469782
 20
-60.506995709
 10
293.7617311122
 20
-61.533745767
 10
291.5483241667
 20
-62.4029186452
 10
289.3589791205
 20
-63.1116231832
 10
287.2009689391
 20
-63.6575102333
 10
285.0814605623
 20
-64.0387602999
 10
283.0074971237
 20
-64.2541150976
 10
280.9859683159
 20
-64.3028490309
 10
279.0235873416
 20
-64.1848098767
 10
277.1268737915
 20
-63.9003830408
 10
275.3021286194
 20
-63.4505181723
 10
273.555413069
 20
-62.836707868
 10
271.8925302344
 20
-62.0609891922
 10
270.319003987
 20
-61.1259406322
 10
268.8400631702
 20
-60.0346668884
 10
267.4606152577
 20
-58.7907958292
 10
266.1852489876
 20
-57.3984571986
 10
265.0181948498
 20
-55.8622780499
 10
263.9633356227
 20
-54.1873599324
 10
263.024172129
 20
-52.3792667211
 10
262.2038232354
 20
-50.4440063656
 10
261.5050179504
 20
-48.3880065543
 10
260.9300743506
 20
-46.2180957009
 10
260.4809022151
 20
-43.9414839334
 10
260.1589951229
 20
-41.5657338152
 10
259.9654225502
 20
-39.0987361996
 10
259.9008272365
 20
-36.5486868456
  0
LWPOLYLINE
  5
E3
330
1F
100
AcDbEntity
  8
0
  6
Continuous
 62
     7
370
    25
100
AcDbPolyline
 90
      103
 70
   128
 43
0.0
 10
264.5677319671
 20
-33.8545400912
 10
264.6326433822
 20
-31.3841450272
 10
264.8271326488
 20
-28.8481752393
 10
265.150459563
 20
-26.2562518445
 10
265.6013992319
 20
-23.6182058021
 10
266.178242074
 20
-20.944044263
 10
266.8787990874
 20
-18.2439108363
 10
267.7004123865
 20
-15.5280494682
 10
268.6399657386
 20
-12.8067603362
 10
269.6938951008
 20
-10.0903671501
 10
270.8582017909
 20
-7.3891753278
 10
272.1284709265
 20
-4.713429411
 10
273.4998819619
 20
-2.0732796061
 10
274.9672350295
 20
0.5212577576
 10
276.5249588428
 20
3.0603382502
 10
278.1671515261
 20
5.5343372468
 10
279.8875792968
 20
7.9338643761
 10
281.6797159791
 20
10.2498197909
 10
283.5367640764
 20
12.4734185015
 10
285.4516811138
 20
14.5962238327
 10
287.4171993941
 20
16.6101831645
 10
289.4258668277
 20
18.507657586
 10
291.4700607618
 20
20.2814511719
 10
293.5420288105
 20
21.9248345529
 10
295.6339105867
 20
23.4315696292
 10
297.7377708758
 20
24.795946972
 10
299.8456291063
 20
26.0127876273
 10
301.9494893955
 20
27.0774756702
 10
304.0413711716
 20
27.985975883
 10
306.1133392204
 20
28.7348358906
 10
308.1575331545
 20
29.3212183834
 10
310.1662005881
 20
29.742902016
 10
312.1317188684
 20
29.9982817864
 10
314.0466359058
 20
30.0863926059
 10
315.9036840031
 20
30.00689599
 10
317.6958206853
 20
29.7600975452
 10
319.4162484561
 20
29.3469340391
 10
321.0584411393
 20
28.7689703563
 10
322.6161649527
 20
28.0283994962
 10
324.0835180203
 20
27.128031923
 10
325.4549290556
 20
26.071279596
 10
326.7251981912
 20
24.8621552053
 10
327.8895048814
 20
23.5052432735
 10
328.9434342436
 20
22.0056910278
 10
329.8829875956
 20
20.3691871059
 10
330.7046008947
 20
18.601940261
 10
331.4051579081
 20
16.7106527453
 10
331.9820007503
 20
14.7024997753
 10
332.4329404192
 20
12.5850975924
 10
332.7562673334
 20
10.3664795067
 10
332.9507566
 20
8.0550622464
 10
333.0156680151
 20
5.6596123069
 10
332.9507566
 20
3.1892172429
 10
332.7562673334
 20
0.653247455
 10
332.4329404192
 20
-1.9386759397
 10
331.9820007503
 20
-4.5767219821
 10
331.4051579081
 20
-7.2508835213
 10
330.7046008947
 20
-9.951016948
 10
329.8829875956
 20
-12.666878316
 10
328.9434342436
 20
-15.388167448
 10
327.8895048814
 20
-18.1045606341
 10
326.7251981912
 20
-20.8057524565
 10
325.4549290556
 20
-23.4814983733
 10
324.0835180203
 20
-26.1216481782
 10
322.6161649527
 20
-28.7161855418
 10
321.0584411393
 20
-31.2552660345
 10
319.4162484561
 20
-33.7292650311
 10
317.6958206853
 20
-36.1287921603
 10
315.9036840031
 20
-38.4447475752
 10
314.0466359058
 20
-40.6683462857
 10
312.1317188684
 20
-42.7911516169
 10
310.1662005881
 20
-44.8051109488
 10
308.1575331545
 20
-46.7025853703
 10
306.1133392204
 20
-48.4763789561
 10
304.0413711716
 20
-50.1197623372
 10
301.9494893955
 20
-51.6264974135
 10
299.8456291063
 20
-52.9908747563
 10
297.7377708758
 20
-54.2077154116
 10
295.6339105867
 20
-55.2724034545
 10
293.5420288105
 20
-56.1809036672
 10
291.4700607618
 20
-56.9297636749
 10
289.4258668277
 20
-57.5161461676
 10
287.4171993941
 20
-57.9378298003
 10
285.4516811138
 20
-58.1932095706
 10
283.5367640764
 20
-58.2813203901
 10
281.6797159791
 20
-58.2018237743
 10
279.8875792968
 20
-57.9550253295
 10
278.1671515261
 20
-57.5418618234
 10
276.5249588428
 20
-56.9638981406
 10
274.9672350295
 20
-56.2233272805
 10
273.4998819619
 20
-55.3229597073
 10
272.1284709265
 20
-54.2662073803
 10
270.8582017909
 20
-53.0570829895
 10
269.6938951008
 20
-51.7001710578
 10
268.6399657386
 20
-50.2006188121
 10
267.7004123865
 20
-48.5641148901
 10
266.8787990874
 20
-46.7968680453
 10
266.178242074
 20
-44.9055805295
 10
265.6013992319
 20
-42.8974275596
 10
265.150459563
 20
-40.7800253766
 10
264.8271326488
 20
-38.561407291
 10
264.6326433822
 20
-36.2499900306
 10
264.5677319671
 20
-33.8545400912
  0
ARC
  5
E4
330
1F
100
AcDbEntity
  8
0
  6
Continuous
 62
     7
370
    25
100
AcDbCircle
 10
373.6570494643
 20
-17.6986987425
 30
0.0
 40
20.68180763393235
100
AcDbArc
 50
34.1348752286
 51
46.5540118408
  0
ARC
  5
E5
330
1F
100
AcDbEntity
  8
0
  6
Continuous
 62
     7
370
    25
100
AcDbCircle
 10
339.3297449462
 20
-77.2303582346
 30
0.0
 40
20.57857247225868
100
AcDbArc
 50
253.4952942662
 51
265.8228361371
  0
LINE
  5
E6
330
1F
100
AcDbEntity
  8
0
  6
Continuous
 62
     7
370
    25
100
AcDbLine
 10
387.152033156
 20
-107.6305462954
 30
0.0
 11
387.0495175325
 21
-107.6107365037
 31
0.0
  0
LWPOLYLINE
  5
E7
330
1F
100
AcDbEntity
  8
0
  6
Continuous
 62
     7
370
    25
100
AcDbPolyline
 90
       47
 70
   128
 43
0.0
 10
470.2752397548
 20
-69.7927063129
 10
470.6011402609
 20
-69.987502086
 10
471.8395845746
 20
-70.8608601125
 10
472.9790654539
 20
-71.8872398423
 10
474.0140353197
 20
-73.0616369092
 10
474.9394457699
 20
-74.3783344399
 10
475.7507963114
 20
-75.8309129447
 10
476.4441277744
 20
-77.4122982265
 10
477.0160631429
 20
-79.1147864792
 10
477.4638180906
 20
-80.9300819321
 10
477.7852115181
 20
-82.8493405773
 10
477.9786760895
 20
-84.8632121865
 10
478.043268769
 20
-86.9618865098
 10
477.9786760895
 20
-89.1351379534
 10
477.7852115181
 20
-91.3723790021
 10
477.4638180906
 20
-93.6627106003
 10
477.0160631429
 20
-95.9949729119
 10
476.4441277744
 20
-98.3578036852
 10
475.7507963114
 20
-100.739692435
 10
474.9394457699
 20
-103.1290363354
 10
474.0140353197
 20
-105.5141900291
 10
472.9790654539
 20
-107.8835378679
 10
471.8395845746
 20
-110.2255342172
 10
470.6011402609
 20
-112.5287696125
 10
469.2697674145
 20
-114.7820247505
 10
467.8519540161
 20
-116.9743176349
 10
466.3546042461
 20
-119.0949720147
 10
464.7850160949
 20
-121.1336531233
 10
463.1508339471
 20
-123.0804315537
 10
461.4600209228
 20
-124.9258205181
 10
459.7208140969
 20
-126.660830597
 10
457.9416863028
 20
-128.2770115615
 10
456.1313059621
 20
-129.7664816467
 10
454.2984929612
 20
-131.1219925677
 10
452.4521760936
 20
-132.3369358369
 10
450.601350748
 20
-133.4053945662
 10
448.7550338804
 20
-134.3221633775
 10
446.9222208795
 20
-135.0827733044
 10
445.1118405388
 20
-135.683523869
 10
443.3327127448
 20
-136.121480132
 10
441.5935059188
 20
-136.3945155119
 10
439.9026928946
 20
-136.5012977122
 10
438.2685107467
 20
-136.4413058282
 10
436.6989225955
 20
-136.2148326251
 10
435.2015728256
 20
-135.8229814911
 10
433.7837594271
 20
-135.2676611126
 10
432.7782870869
 20
-134.7463721166
  0
LWPOLYLINE
  5
E8
330
1F
100
AcDbEntity
  8
0
  6
Continuous
 62
     1
370
    25
100
AcDbPolyline
 90
       57
 70
   128
 43
0.0
 10
384.0823570068
 20
0.1720991386
 10
384.2820277016
 20
0.055145545
 10
385.8088947535
 20
-0.9584377232
 10
387.2386844424
 20
-2.126493835
 10
388.5666420769
 20
-3.4451455044
 10
389.7883606772
 20
-4.9100135725
 10
390.8997783408
 20
-6.5162291749
 10
391.8972045842
 20
-8.2584580784
 10
392.7773256116
 20
-10.1309128496
 10
393.5372174851
 20
-12.1273726275
 10
394.1743566624
 20
-14.2412066996
 10
394.6866278985
 20
-16.465391232
 10
395.0723268801
 20
-18.7925389282
 10
395.3301733968
 20
-21.2149188025
 10
395.4593113406
 20
-23.7244845068
 10
395.4593113406
 20
-26.312899046
 10
395.3301733968
 20
-28.9715642465
 10
395.0723268801
 20
-31.6916473722
 10
394.6866278985
 20
-34.4641136338
 10
394.1743566624
 20
-37.2797539458
 10
393.5372174851
 20
-40.1292132537
 10
392.7773256116
 20
-43.003025514
 10
391.8972045842
 20
-45.8916463935
 10
390.8997783408
 20
-48.7854791252
 10
389.7883606772
 20
-51.6749102479
 10
388.5666420769
 20
-54.5503445872
 10
387.2386844424
 20
-57.4022235057
 10
385.8088947535
 20
-60.221079654
 10
384.2820277016
 20
-62.9975460963
 10
382.6631488111
 20
-65.7224019349
 10
380.9576423417
 20
-68.386592083
 10
379.1711717764
 20
-70.9812652837
 10
377.3096692841
 20
-73.4978106122
 10
375.3793199147
 20
-75.9278605149
 10
373.3865365747
 20
-78.2633448011
 10
371.3379389534
 20
-80.4965058494
 10
369.2403324499
 20
-82.619925983
 10
367.1006851235
 20
-84.6265468588
 10
364.9261039866
 20
-86.5097105307
 10
362.7238132724
 20
-88.2631537437
 10
360.5011287519
 20
-89.881056221
 10
358.2654338615
 20
-91.3580422779
 10
356.0241553369
 20
-92.6892040135
 10
353.7847383529
 20
-93.8701217455
 10
351.5546224869
 20
-94.8968718035
 10
349.3412155414
 20
-95.7660446817
 10
347.1518704952
 20
-96.4747492197
 10
344.9938603138
 20
-97.0206362698
 10
342.874351937
 20
-97.4018863364
 10
340.8003884984
 20
-97.6172411341
 10
338.7788596906
 20
-97.6659750674
 10
336.8164787163
 20
-97.5479359132
 10
334.9197651662
 20
-97.2635090773
 10
333.0950199941
 20
-96.8136442088
 10
331.3483044436
 20
-96.1998339045
 10
329.6854216091
 20
-95.4241152287
 10
329.0868257247
 20
-95.0932789958
  0
LWPOLYLINE
  5
E9
330
1F
100
AcDbEntity
  8
0
  6
Continuous
 62
     1
370
    25
100
AcDbPolyline
 90
       47
 70
   128
 43
0.0
 10
390.7757730929
 20
-6.0932488014
 10
391.2285988333
 20
-6.7842828557
 10
392.2247395978
 20
-8.524268273
 10
393.1037279286
 20
-10.3943122705
 10
393.8626425221
 20
-12.3882015922
 10
394.4989624701
 20
-14.4993123698
 10
395.0105725274
 20
-16.7206336974
 10
395.3957736494
 20
-19.0447851231
 10
395.6532908938
 20
-21.4640447873
 10
395.7822602502
 20
-23.9703803145
 10
395.7822602502
 20
-26.555461935
 10
395.6532908938
 20
-29.2107023117
 10
395.3957736494
 20
-31.9272850575
 10
395.0105725274
 20
-34.6961802321
 10
394.4989624701
 20
-37.5081939586
 10
393.8626425221
 20
-40.35398411
 10
393.1037279286
 20
-43.2240975704
 10
392.2247395978
 20
-46.1089998928
 10
391.2285988333
 20
-48.9991049559
 10
390.1186115284
 20
-51.8848160284
 10
388.8984681665
 20
-54.7565455403
 10
387.5722174793
 20
-57.604756146
 10
386.1442717151
 20
-60.4199804966
 10
384.6193671258
 20
-63.1928714265
 10
383.0025771384
 20
-65.9142156435
 10
381.2992649394
 20
-68.5749763097
 10
379.5150940116
 20
-71.1663112942
 10
377.6559886212
 20
-73.6796142338
 10
375.7281245988
 20
-76.106535065
 10
373.7379082653
 20
-78.4390134822
 10
371.6919487733
 20
-80.669297947
 10
369.5970436193
 20
-82.7899844699
 10
367.4601503261
 20
-84.7940238326
 10
365.2883693204
 20
-86.6747588488
 10
363.0889142989
 20
-88.4259445135
 10
360.8690918129
 20
-90.0417658725
 10
358.6362757498
 20
-91.5168497115
 10
356.3978831729
 20
-92.8462967552
 10
354.1613500788
 20
-94.0256956619
 10
351.9341054669
 20
-95.0511227839
 10
349.7235487021
 20
-95.9191765281
 10
347.5370228849
 20
-96.626968395
 10
345.3817904442
 20
-97.1721522775
 10
343.2650123929
 20
-97.5529121018
 10
341.1937200108
 20
-97.7679872998
 10
339.1747924538
 20
-97.8166614006
 10
337.8307874067
 20
-97.7542655451
  0
LWPOLYLINE
  5
EA
330
1F
100
AcDbEntity
  8
0
  6
Continuous
 62
     1
370
    25
100
AcDbPolyline
 90
       41
 70
   128
 43
0.0
 10
423.9082628639
 20
-43.7625983824
 10
424.3758900506
 20
-44.3264692209
 10
425.3030495951
 20
-45.6456521084
 10
426.1159305939
 20
-47.100974507
 10
426.8105712435
 20
-48.6853470098
 10
427.383586625
 20
-50.391050601
 10
427.8321871438
 20
-52.2097742999
 10
428.1541890664
 20
-54.1326562277
 10
428.3480171544
 20
-56.150332657
 10
428.4127310061
 20
-58.2529707143
 10
428.3480171544
 20
-60.4303257944
 10
428.1541890664
 20
-62.6717913706
 10
427.8321871438
 20
-64.9664488048
 10
427.383586625
 20
-67.3031156381
 10
426.8105712435
 20
-69.6704087063
 10
426.1159305939
 20
-72.0567962317
 10
425.3030495951
 20
-74.4506510544
 10
424.3758900506
 20
-76.8403095662
 10
423.3389656247
 20
-79.2141333061
 10
422.197332622
 20
-81.5605523057
 10
420.9565491582
 20
-83.8681373292
 10
419.622663306
 20
-86.1256462608
 10
418.2021709485
 20
-88.3220803748
 10
416.7019947055
 20
-90.4467390869
 10
415.1294404698
 20
-92.4892724222
 10
413.4921723824
 20
-94.4397274011
 10
411.7981667344
 20
-96.2886020278
 10
410.0556750884
 20
-98.0268893936
 10
408.2731880589
 20
-99.6461198793
 10
406.459388555
 20
-101.1384033563
 10
404.623113915
 20
-102.4964753817
 10
402.7733103011
 20
-103.7137143988
 10
400.9189895659
 20
-104.7841909735
 10
399.0691859521
 20
-105.7026897485
 10
397.232911312
 20
-106.4647352946
 10
395.4191118082
 20
-107.066620149
 10
393.6366247786
 20
-107.5054053816
 10
391.8941331327
 20
-107.778956047
 10
390.2001274846
 20
-107.88593871
 10
388.5628593973
 20
-107.8258332275
 10
387.152033156
 20
-107.6305462954
  0
LWPOLYLINE
  5
EB
330
1F
100
AcDbEntity
  8
0
  6
Continuous
 62
     1
370
    25
100
AcDbPolyline
 90
       43
 70
   128
 43
0.0
 10
423.2726264852
 20
-43.0353863657
 10
423.6714568443
 20
-43.4225632797
 10
424.7064267101
 20
-44.5969603466
 10
425.6318371603
 20
-45.9136578772
 10
426.4431877017
 20
-47.3662363821
 10
427.1365191648
 20
-48.9476216638
 10
427.7084545333
 20
-50.6501099165
 10
428.156209481
 20
-52.4654053694
 10
428.4776029085
 20
-54.3846640147
 10
428.6710674799
 20
-56.3985356239
 10
428.7356601594
 20
-58.4972099471
 10
428.6710674799
 20
-60.6704613907
 10
428.4776029085
 20
-62.9077024395
 10
428.156209481
 20
-65.1980340377
 10
427.7084545333
 20
-67.5302963492
 10
427.1365191648
 20
-69.8931271225
 10
426.4431877017
 20
-72.2750158724
 10
425.6318371603
 20
-74.6643597728
 10
424.7064267101
 20
-77.0495134665
 10
423.6714568443
 20
-79.4188613052
 10
422.531975965
 20
-81.7608576546
 10
421.2935316513
 20
-84.0640930498
 10
419.9621588049
 20
-86.3173481879
 10
418.5443454065
 20
-88.5096410723
 10
417.0469956365
 20
-90.630295452
 10
415.4774074853
 20
-92.6689765606
 10
413.8432253375
 20
-94.6157549911
 10
412.1524123132
 20
-96.4611439554
 10
410.4132054873
 20
-98.1961540344
 10
408.6340776932
 20
-99.8123349988
 10
406.8236973525
 20
-101.301805084
 10
404.9908843516
 20
-102.6573160051
 10
403.144567484
 20
-103.8722592743
 10
401.2937421384
 20
-104.9407180035
 10
399.4474252708
 20
-105.8574868149
 10
397.6146122699
 20
-106.6180967417
 10
395.8042319292
 20
-107.2188473064
 10
394.0251041352
 20
-107.6568035694
 10
392.2858973092
 20
-107.9298389492
 10
390.595084285
 20
-108.0366211495
 10
388.9609021371
 20
-107.9766292656
 10
387.3913139859
 20
-107.7501560624
 10
386.1018970102
 20
-107.4239561893
  0
ENDSEC
  0
SECTION
  2
OBJECTS
  0
DICTIONARY
  5
C
330
0
100
AcDbDictionary
281
     1
  3
ACAD_GROUP
350
D
  3
ACAD_LAYOUT
350
1A
  3
ACAD_MLINESTYLE
350
17
  3
ACAD_PLOTSETTINGS
350
19
  3
ACAD_PLOTSTYLENAME
350
E
  3
ACAD_SCALELIST
350
47
  0
DICTIONARY
  5
D
102
{ACAD_REACTORS
330
C
102
}
330
C
100
AcDbDictionary
281
     1
  0
DICTIONARY
  5
1A
102
{ACAD_REACTORS
330
C
102
}
330
C
100
AcDbDictionary
281
     1
  3
Layout1
350
1E
  3
Layout2
350
26
  3
Model
350
22
  0
DICTIONARY
  5
17
102
{ACAD_REACTORS
330
C
102
}
330
C
100
AcDbDictionary
281
     1
  3
Standard
350
18
  0
DICTIONARY
  5
19
102
{ACAD_REACTORS
330
C
102
}
330
C
100
AcDbDictionary
281
     1
  0
ACDBDICTIONARYWDFLT
  5
E
102
{ACAD_REACTORS
330
C
102
}
330
C
100
AcDbDictionary
281
     1
  3
Normal
350
F
100
AcDbDictionaryWithDefault
340
F
  0
DICTIONARY
  5
47
102
{ACAD_REACTORS
330
C
102
}
330
C
100
AcDbDictionary
281
     1
  3
A0
350
48
  3
A1
350
49
  3
A2
350
4A
  3
A3
350
4B
  3
A4
350
4C
  3
A5
350
4D
  3
A6
350
4E
  3
A7
350
4F
  3
A8
350
50
  3
A9
350
51
  3
B0
350
52
  3
B1
350
53
  3
B2
350
54
  3
B3
350
55
  3
B4
350
56
  3
B5
350
57
  3
B6
350
58
  3
B7
350
59
  3
B8
350
5A
  3
B9
350
5B
  3
C0
350
5C
  3
C1
350
5D
  3
C2
350
5E
  3
C3
350
5F
  3
C4
350
60
  3
C5
350
61
  3
C6
350
62
  3
C7
350
63
  3
C8
350
64
  3
C9
350
65
  3
D0
350
66
  3
D1
350
67
  3
D2
350
68
  0
LAYOUT
  5
1E
102
{ACAD_REACTORS
330
1A
102
}
330
1A
100
AcDbPlotSettings
  1

  2
none_device
  4

  6

 40
0.0
 41
0.0
 42
0.0
 43
0.0
 44
0.0
 45
0.0
 46
0.0
 47
0.0
 48
0.0
 49
0.0
140
0.0
141
0.0
142
1.0
143
1.0
 70
   688
 72
     1
 73
     0
 74
     5
  7

 75
    16
147
1.0
148
0.0
149
0.0
100
AcDbLayout
  1
Layout1
 70
     1
 71
     1
 10
0.0
 20
0.0
 11
420.0
 21
297.0
 12
0.0
 22
0.0
 32
0.0
 14
1.0000000000E+20
 24
1.0000000000E+20
 34
1.0000000000E+20
 15
-1.0000000000E+20
 25
-1.0000000000E+20
 35
-1.0000000000E+20
146
0.0
 13
0.0
 23
0.0
 33
0.0
 16
1.0
 26
0.0
 36
0.0
 17
0.0
 27
1.0
 37
0.0
 76
     0
330
1B
  0
LAYOUT
  5
26
102
{ACAD_REACTORS
330
1A
102
}
330
1A
100
AcDbPlotSettings
  1

  2
none_device
  4

  6

 40
0.0
 41
0.0
 42
0.0
 43
0.0
 44
0.0
 45
0.0
 46
0.0
 47
0.0
 48
0.0
 49
0.0
140
0.0
141
0.0
142
1.0
143
1.0
 70
   688
 72
     1
 73
     0
 74
     5
  7

 75
    16
147
1.0
148
0.0
149
0.0
100
AcDbLayout
  1
Layout2
 70
     1
 71
     2
 10
0.0
 20
0.0
 11
0.0
 21
0.0
 12
0.0
 22
0.0
 32
0.0
 14
0.0
 24
0.0
 34
0.0
 15
0.0
 25
0.0
 35
0.0
146
0.0
 13
0.0
 23
0.0
 33
0.0
 16
1.0
 26
0.0
 36
0.0
 17
0.0
 27
1.0
 37
0.0
 76
     0
330
23
  0
LAYOUT
  5
22
102
{ACAD_REACTORS
330
1A
102
}
330
1A
100
AcDbPlotSettings
  1

  2
none_device
  4
Letter_(8.50_x_11.00_Inches)
  6

 40
6.35
 41
6.35
 42
6.35000508
 43
6.35000508
 44
215.9
 45
279.4
 46
0.0
 47
0.0
 48
0.0
 49
0.0
140
0.0
141
0.0
142
1.0
143
1.0
 70
  1712
 72
     1
 73
     0
 74
     0
  7

 75
     0
147
1.0
148
0.0
149
0.0
100
AcDbLayout
  1
Model
 70
     1
 71
     0
 10
0.0
 20
0.0
 11
279.4
 21
215.9
 12
0.0
 22
0.0
 32
0.0
 14
0.0
 24
0.0
 34
0.0
 15
279.4
 25
215.9
 35
0.0
146
0.0
 13
0.0
 23
0.0
 33
0.0
 16
1.0
 26
0.0
 36
0.0
 17
0.0
 27
1.0
 37
0.0
 76
     0
330
1F
331
29
  0
MLINESTYLE
  5
18
102
{ACAD_REACTORS
330
17
102
}
330
17
100
AcDbMlineStyle
  2
Standard
 70
     0
  3

 62
   256
 51
90.0
 52
90.0
 71
     2
 49
0.5
 62
   256
  6
BYLAYER
 49
-0.5
 62
   256
  6
BYLAYER
  0
ACDBPLACEHOLDER
  5
F
102
{ACAD_REACTORS
330
E
102
}
330
E
  0
SCALE
  5
48
102
{ACAD_REACTORS
330
47
102
}
330
47
100
AcDbScale
 70
     0
300
1:1
140
1.0
141
1.0
290
     1
  0
SCALE
  5
49
102
{ACAD_REACTORS
330
47
102
}
330
47
100
AcDbScale
 70
     0
300
1:2
140
1.0
141
2.0
290
     0
  0
SCALE
  5
4A
102
{ACAD_REACTORS
330
47
102
}
330
47
100
AcDbScale
 70
     0
300
1:4
140
1.0
141
4.0
290
     0
  0
SCALE
  5
4B
102
{ACAD_REACTORS
330
47
102
}
330
47
100
AcDbScale
 70
     0
300
1:5
140
1.0
141
5.0
290
     0
  0
SCALE
  5
4C
102
{ACAD_REACTORS
330
47
102
}
330
47
100
AcDbScale
 70
     0
300
1:8
140
1.0
141
8.0
290
     0
  0
SCALE
  5
4D
102
{ACAD_REACTORS
330
47
102
}
330
47
100
AcDbScale
 70
     0
300
1:10
140
1.0
141
10.0
290
     0
  0
SCALE
  5
4E
102
{ACAD_REACTORS
330
47
102
}
330
47
100
AcDbScale
 70
     0
300
1:16
140
1.0
141
16.0
290
     0
  0
SCALE
  5
4F
102
{ACAD_REACTORS
330
47
102
}
330
47
100
AcDbScale
 70
     0
300
1:20
140
1.0
141
20.0
290
     0
  0
SCALE
  5
50
102
{ACAD_REACTORS
330
47
102
}
330
47
100
AcDbScale
 70
     0
300
1:30
140
1.0
141
30.0
290
     0
  0
SCALE
  5
51
102
{ACAD_REACTORS
330
47
102
}
330
47
100
AcDbScale
 70
     0
300
1:40
140
1.0
141
40.0
290
     0
  0
SCALE
  5
52
102
{ACAD_REACTORS
330
47
102
}
330
47
100
AcDbScale
 70
     0
300
1:50
140
1.0
141
50.0
290
     0
  0
SCALE
  5
53
102
{ACAD_REACTORS
330
47
102
}
330
47
100
AcDbScale
 70
     0
300
1:100
140
1.0
141
100.0
290
     0
  0
SCALE
  5
54
102
{ACAD_REACTORS
330
47
102
}
330
47
100
AcDbScale
 70
     0
300
2:1
140
2.0
141
1.0
290
     0
  0
SCALE
  5
55
102
{ACAD_REACTORS
330
47
102
}
330
47
100
AcDbScale
 70
     0
300
4:1
140
4.0
141
1.0
290
     0
  0
SCALE
  5
56
102
{ACAD_REACTORS
330
47
102
}
330
47
100
AcDbScale
 70
     0
300
8:1
140
8.0
141
1.0
290
     0
  0
SCALE
  5
57
102
{ACAD_REACTORS
330
47
102
}
330
47
100
AcDbScale
 70
     0
300
10:1
140
10.0
141
1.0
290
     0
  0
SCALE
  5
58
102
{ACAD_REACTORS
330
47
102
}
330
47
100
AcDbScale
 70
     0
300
100:1
140
100.0
141
1.0
290
     0
  0
SCALE
  5
59
102
{ACAD_REACTORS
330
47
102
}
330
47
100
AcDbScale
 70
     0
300
1/128" = 1'-0"
140
0.0078125
141
12.0
290
     0
  0
SCALE
  5
5A
102
{ACAD_REACTORS
330
47
102
}
330
47
100
AcDbScale
 70
     0
300
1/64" = 1'-0"
140
0.015625
141
12.0
290
     0
  0
SCALE
  5
5B
102
{ACAD_REACTORS
330
47
102
}
330
47
100
AcDbScale
 70
     0
300
1/32" = 1'-0"
140
0.03125
141
12.0
290
     0
  0
SCALE
  5
5C
102
{ACAD_REACTORS
330
47
102
}
330
47
100
AcDbScale
 70
     0
300
1/16" = 1'-0"
140
0.0625
141
12.0
290
     0
  0
SCALE
  5
5D
102
{ACAD_REACTORS
330
47
102
}
330
47
100
AcDbScale
 70
     0
300
3/32" = 1'-0"
140
0.09375
141
12.0
290
     0
  0
SCALE
  5
5E
102
{ACAD_REACTORS
330
47
102
}
330
47
100
AcDbScale
 70
     0
300
1/8" = 1'-0"
140
0.125
141
12.0
290
     0
  0
SCALE
  5
5F
102
{ACAD_REACTORS
330
47
102
}
330
47
100
AcDbScale
 70
     0
300
3/16" = 1'-0"
140
0.1875
141
12.0
290
     0
  0
SCALE
  5
60
102
{ACAD_REACTORS
330
47
102
}
330
47
100
AcDbScale
 70
     0
300
1/4" = 1'-0"
140
0.25
141
12.0
290
     0
  0
SCALE
  5
61
102
{ACAD_REACTORS
330
47
102
}
330
47
100
AcDbScale
 70
     0
300
3/8" = 1'-0"
140
0.375
141
12.0
290
     0
  0
SCALE
  5
62
102
{ACAD_REACTORS
330
47
102
}
330
47
100
AcDbScale
 70
     0
300
1/2" = 1'-0"
140
0.5
141
12.0
290
     0
  0
SCALE
  5
63
102
{ACAD_REACTORS
330
47
102
}
330
47
100
AcDbScale
 70
     0
300
3/4" = 1'-0"
140
0.75
141
12.0
290
     0
  0
SCALE
  5
64
102
{ACAD_REACTORS
330
47
102
}
330
47
100
AcDbScale
 70
     0
300
1" = 1'-0"
140
1.0
141
12.0
290
     0
  0
SCALE
  5
65
102
{ACAD_REACTORS
330
47
102
}
330
47
100
AcDbScale
 70
     0
300
1-1/2" = 1'-0"
140
1.5
141
12.0
290
     0
  0
SCALE
  5
66
102
{ACAD_REACTORS
330
47
102
}
330
47
100
AcDbScale
 70
     0
300
3" = 1'-0"
140
3.0
141
12.0
290
     0
  0
SCALE
  5
67
102
{ACAD_REACTORS
330
47
102
}
330
47
100
AcDbScale
 70
     0
300
6" = 1'-0"
140
6.0
141
12.0
290
     0
  0
SCALE
  5
68
102
{ACAD_REACTORS
330
47
102
}
330
47
100
AcDbScale
 70
     0
300
1'-0" = 1'-0"
140
12.0
141
12.0
290
     0
  0
ENDSEC
  0
EOF
